Kunci Gitar Diantara Kalian

Tingkat Kesulitan: Novice / Versi Kunci Gitar: 1
Belajar kunci gitar lagu Diantara Kalian, lagu ini dinyanyikan oleh artis atau band DMasiv dengan kunci dasar gitar yang cocok untuk level Novice. Chord gitar sudah dilengkapi dengan lirik lagu DMasiv Diantara Kalian.
Tranpose
Dmasiv - Diantara Kalian
 
                       Am
kuakui,ku sangat-sangat menginginkanmu
C              G              F#m
tapi kini kusadar ku diantara kalian
 
Am
aku
        Bm
tak mengerti
    C              D
ini semua harus terjadi
 
Em                     Am
ku akui ku sangat-sangat mengharapkan mu
C
tapi kini kusadar
G         F#m
ku takkan bisa
 
 
Am
aku
Bm
tak mengerti
C                 D
ini semua harus terjadi
 
Am      D
lupakan aku
G       C
kembali padanya
Am  B     Em
aku bukan siapa-siapa
D
untuk mu
 
Am      D
kucintaimu
G       C
tak brati bahwa
Am      B        C
ku harus memiliki mu slamanya
 
 
Guitar solo
E----------------------------I-----------------------|I
A----------------------------I-----------------------|I
D----------------------------I-----------------------|I
G-7h9p7--5-----5-------5\----I------5-----5-----7b9--|I
B-----------7-------7--------I--/7-----7-----7-------|I
E----------------------------I-----------------------|I
 
 
E----------------------------I-----------------------------|I
A----------------------------I-----------------------------|I
D----------------------------I-----------------------------|I
G-7h9p7--5-----5-------5\----I------5-----5---5h7p5p4-----|I
B-----------7-------7--------I--/7-----7-------------------|I
E----------------------------I-----------------------------|I
 
E-----------------------------|I
A----------7h9^^--9p7---------|I
D--------7------------7-------|I
G---/7h9----------------7-5---|^I
B-----------------------------|I
E-----------------------------|I
 
E-------------------------------------9---9------------------------------|I
A----------7h9^^--9p7-----8/10--10-10b12-b12r10--10b12r10-8---8-10-8^^---|I
D--------7------------7-------------------------------------9------------|I
G---/7h9----------------7------------------------------------------------|I
B------------------------------------------------------------------------|I
E------------------------------------------------------------------------|I
 
 
 
E----------15--15---15---15-----14----15---|I
A--/15--15b17-b17--b17--b17-r15----15------|I
D------------------------------------------|I
G------------------------------------------|I
B------------------------------------------|I
E------------------------------------------|I
Video Lagu DMasiv Diantara Kalian Belum Tersedia